Oasis Some might say - tabs y acordes!

Ver el tema anterior Ver el tema siguiente Ir abajo

Oasis Some might say - tabs y acordes!

Mensaje por ANGEL_GALLAGHER el Jue Oct 21, 2010 9:02 pm

Código:
   Some Might Say – Oasis
                              
Tabbed by: Angel Gallagher            
Email: angel.derecho2006@gmail.com

Acordes:
D:      xx0232
Bsus2:  x24422
G:      320033
G2:    355433
A:      X02220
A2:    577655
Em:    022000
Cadd9:  x32030
F#m:    244222
F:      133211
C:      032010
b=Bend
s=Slide
h=Hammer-On
p=Pull-off
~=vibrato


Intro:
 




  D           Bsus2           G2    D        A
e--------------------------2--2----2------------------------0-0-0-0-0-0-0-|
B--3333-333-333-333---------2---2----2----------------------3-2-3-2-2-3-2-|
G--2242-242-242-222--2s4-----4----4----4--------------------2-2-2-2-2-2-2-|
D--0000-000-000-000--2s4-----------------4s5---6h7--7h9-7~--2-2-2-2-2-2-2-|
A--------------------0h2-----------------4s5----------------0-0-0-0-0-0-0-|
E-------------------------------------------------------------------------|

D                     Bsus2
e------------------------------------------------------------------------|
B------------------------------------------------------------------------|
G-9b11-9bb11--9--7--9--7---9b11-9bbbb11----------7--9--9b11r9—7-7h9--7~--|
D--------------------------------------7-7-7h9---------------------------|
A------------------------------------------------------------------------|
E------------------------------------------------------------------------|
   
  G2           D                    A
e---------------------------------------------------------------|
B--8--7--8--7--8s10--8--7--8--7--8s10--10-10—10s12-10—-10s12-10-|
G--------------9s11--9--7--9--7--9s11--11-11--------------------|
D---------------------------------------------------------------|
A---------------------------------------------------------------|
E---------------------------------------------------------------|



D                Bsus2
Some might say that they don’t believe in heaven
      G         D               A
Go and tell it to the man who lives in hell
D                Bsus2
Some might say that we should never ponder
      G        D            A
On our thoughts today cos they hold sway over time


     Em         G         D
Some might say we will find a brighter day
            B---333-333----------|
            G---242-242----------|
            D---000-000----------|


     Em         Cadd9         G
Some might say we will find a a brighter day!



    D       G      Em          G       D    G  Em    G
Cos I've been standing at the station, in need of education in the rain
    D        G    Em        G           D    G  Em    G
You made no preparation, for my reputation was to gain
    D       G     Em        G        D    G Em    G
The sink is full of fishes, she's got dirty dishes on the brain
    D             G     Em          G          D    G  Em      G
If overflowing gently, it's all elementary my friend



F#m          F        C          A
e--------------------------------------------------------5h7p5---5h7p5-|
B-7b—5b--3-3-5-5b6r5--3-3-3---0---3-5-5b6r5---3--5--5--7---------------|
G----------------------------------------------------------------------|
D----------------------------------------------------------------------|
A----------------------------------------------------------------------|
E----------------------------------------------------------------------|

  D                 Bsus2
e--------------------------------------------------------------------------|
B------------------------------------------8--7--8--7--8--7--8s10-10--8--7-|
G-----7--7--7---7--9--9b11r9--7--7h9—7~----9--7--9--7--9--7--9s11-11--9--7-|
D-7h9---9--9-9-------------------------------------------------------------|
A--------------------------------------------------------------------------|
E--------------------------------------------------------------------------|


          



  G                     D                       A2
e--------------------------------------------------------------------------|
B-8--7--8--7--8--8s10--10--8--7--8--7--8--8s10--10--8--7--8--7--8--7--7--8-|
G-9--7--9--7--9--9s11--11--9--7--9--7--9--9s11--11--9--7--9--7--9--7--7--9-|
D--------------------------------------------------------------------------|
A--------------------------------------------------------------------------|
E--------------------------------------------------------------------------|

e--------------------------------|
B-7--7--8--7--10--10--10--8--7---|
G-7--7--9--7--11--11--11--9--7---|
D--------------------------------|
A--------------------------------|
E--------------------------------|




D      Bsus2
Some might say they don't belive in heaven
               G----------7--9--9b10r9--7--7h9--7--9--7--|
               D-----7--9--------------------------------|
G         D               A
Go and tell it to the man who lives in hell...

                      G------7---7-----7--9b10--b10--b10--b10--b10r9--7h9--7-|
                      D--7h9--------9----------------------------------------|
D           Bsus2
Some might say you get what you’ve been given...

                  e----------------------------------7-----------------------|
                  B----------------------------------------------------------|
                  G-9--9b10r9--7----------7--9--9b11---b10r9--7--9--7--9--7--|
                  D---------------9--7--9------------------------------------|
G                D                A
If you don't get yours I wont get mine as well

            B----------------------------------------------------------------|
            G------7--9b10--b10--b10--b10--b10--b10--b10--b10--b10r9--7h9--7-|
            D-7h9------------------------------------------------------------|






Em                G                D
Some might say we will find a brighter day....

                      e---------------------------7---------------|
                      B-------------------------------------------|
                      G--9b11--9--7-----7--9b10.5----9--7--9--7---|
                      D--------------9----------------------------|
Em                Cadd9            D
Some might say we will find a brighter ....


    D       G      Em          G       D    G  Em    G
Cos I've been standing at the station, in need of education in the rain
    D        G    Em        G           D    G  Em    G
You made no preparation, for my reputation was to gain
    D       G     Em        G        D    G Em    G
The sink is full of fishes, she's got dirty dishes on the brain
    D             G     Em          G          D    G  Em      G
If overflowing gently, it's all elementary my friend


                    D        G      Em        G   
Some might say (some might say)
                    D        G      Em        G
You know what some might say
                    D        G      Em         G
You know what some might say
 
( 2 veces )



D      G          Em          G       
E----------------------------------------|
B----------------------------------------|
G----------------------------------------|
D----s4-4-2--0----------0-----0--2s4—2-0-|
A----------------0--2----2---------------|
E----------------------------------------|

D      G          Em            G       
e----------------------------------------|
B----------------------------------------|
G----------------------------------------|
D----s4-4-2--0----------0-----0--2s4-2-0-|
A----------------0--2----2---------------|
E----------------------------------------|
D      G          Em          G       
e----------------------------------------|
B----------------------------------------|
G----------------------------------------|
D----s4-4-2--0----------0-----0--2s4-2-0-|
A----------------0--2----2---------------|
E----------------------------------------|


D    G        Em        G                D      G        Em      G
e----------------------------------------------------------------------------|
B----------------------------------------------------------------------------|
G---------------------------7--9b11-9-7----9b11--9-7~----7----7---9bbb11-9-7-|
D---s4-4-2--0----------7--9--------------------------7h9---9-----------------|
A---------------7--7s9-------------------------------------------------------|
E----------------------------------------------------------------------------|

D    G        Em        G                D      G        Em      G
e----------------------------------------------------------------------------|
B----------------------------------------------------------------------------|
G--9b11--9-7~----7----7---9bbb11-9-7-------9b11--9-7~----7----7---9bbb11-9-7-|
D------------7h9---9---------------------------------7h9---9-----------------|
A----------------------------------------------------------------------------|
E----------------------------------------------------------------------------|

D    G        Em        G                D      G        Em      G
e-------------------------8~-8bbb10-8~----8-10p8---8-10p8---8-10p8-12p8-10p8-|
B--------------------8-10----------------------------------------------------|
G--9b11--9-7~----7-9---------------------------------------------------------|
D----------------------------------------------------------------------------|
A----------------------------------------------------------------------------|
E----------------------------------------------------------------------------|

D    G        Em        G                D      G        Em      G
e-8-10p8---8-10p8---8-10p8-12p8-10p8------8-10p8---8-10p8---8-10p8-12p8-10p8-|
B----------------------------------------------------------------------------|
G----------------------------------------------------------------------------|
D----------------------------------------------------------------------------|
A----------------------------------------------------------------------------|
E----------------------------------------------------------------------------|


e-13-12---10---—8-----|
B---------------------|
G---------------------|
D---------------------|
A---------------------|
E---------------------|


F#m            F        C            A
e-------------------------------------------------5h7p5--5h7p5----5----5s12---|
B-7b--5--3--5-5b6r5-3--3--0-0--3-5-5b6r5-3-5-7-----------------5h7--5h7-----|
G------------------------------------------------------------------------------|
D------------------------------------------------------------------------------|
A------------------------------------------------------------------------------|
E------------------------------------------------------------------------------|



_________________
avatar
ANGEL_GALLAGHER
My Big Mouth

Masculino
Cantidad de envíos : 8842
Edad : 34
Localización : angel_derecho2006@hotmail.com
Empleo /Ocios : Abogado, madferit, y pelotero
Humor : el de melchorita
Fecha de inscripción : 28/04/2008

Ver perfil de usuario http://www.youtube.com/user/Angel2006Oasis

Volver arriba Ir abajo

Ver el tema anterior Ver el tema siguiente Volver arriba

- Temas similares

 
Permisos de este foro:
No puedes responder a temas en este foro.